22:12 

Пустота. для гитары.

CrazY_JulieT
Позитивный лав-рококо-рэп от феи танцующих зонтиков... Оле Лукойе ин да мазафакин хаус.
Crazy Juliet - Пустота


Строй стандартный от Ми (E).
В идеале лучше играть в две гитары, одна играет ритм - то квинтами, то аккордами на припевах, другая - на аккордах перебором + соло (Intro).


____Dm___G___Am___F____F5__G5_
1)e|--5--|--3--|--5--|--1--|-----|------|
2)H|--6--|--3--|--5--|--1--|-----|------|
3)G|--7--|--4--|--5--|--2--|-----|------|
4)D|--7--|--5--|--7--|--3--|-----|------|
5)A|--5--|--5--|--7--|--3--|--3--|--5--|
6)E|--5--|--3--|--5--|--1--|--1--|--3--|

___________
ВСТУПЛЕНИЕ:

играем
Intro 1
------------------|---------3-----1--------|
-------1-----5---|------1------------5-3--|
-2---------------|--2----------------------|
------------------|-------------------------|
------------------|-------------------------|
------------------|-------------------------|

далее
Intro 2 + одновременно вторая гитара ритм: F Am G Dm }-3 раза, + F Am G G.
--------------------------------3----3-1----1-----------------|
-------------1--5-----------1--------------------5---5-6---5-|
-2-------2--------------2--------------------------------------|
----------------------------------------------------------------|
----------------------------------------------------------------|
----------------------------------------------------------------|


--------------------------------3----3-1-----1-----------------|\
-1----------1--5-----------1--------------------555-6--5-(3)-|-\
---------2---------------2--------------------------------------|--\ 2 раза
-----------------------------------------------------------------|--/
-----------------------------------------------------------------|-/
-----------------------------------------------------------------|/


----------------------------------------------------|
-1-----------1-5--------5-3--0--------------------|
----------2-----------------------------------------|
-----------------------------------------------------|
-----------------------------------------------------|
-----------------------------------------------------|




Куплет 1:
Dm______G
Я вижу сны наяву
Am____________F5________G5
Каждый раз в них живу каждый час
Dm_____________G_______Am_______F5_______G5
И иду по проводам и с далека смотрю на всех

Dm_______G
Я прошу меня забери туда
______Dm_______G
где нет тебя и нет меня
F___________G________Am
так близко и так далеко
F___________G_______Am
Так низко и так высоко


Припев 1: (вторая гитара может играть Intro 2)
F_______Am
Я на краю и смотрю
G_________Dm
закрытыми глазами
F______________Am
в даль Сделать шаг
______G________________Dm
в никуда там где нет тебя моя
F__________Am
печаль В никуда
__________G_______________Dm___________F
там где смерть так холодна глаз её красота
_______Am_______G_____G
но в душе пустота


Куплет 2: (все аналогично)
Надоел этот шум от людей
серых дней, ночных огней
И боюсь многого не успеть
душой постареть, но не смерть

Я прошу меня забери туда
где нет тебя и нет меня
так близко и так далеко
Так низко и так высоко

Припев 2: (все то же самое что и первый припев)
.....
Intro 1 (соло) + одновременно ритм: F-2раза, Am, G. + F-2раза, Am, G.
.....
Последний припев, аккорды транспонируются на полтона вверх.
Так же самое происходит и с соло (Intro 2).:

F#______A#m
Я на краю и смотрю
G#________D#m
закрытыми глазами
F#______A#m
в даль Сделать шаг
______G#________________D#m
в никуда там где нет тебя моя
F#______A#m
печаль В никуда
__________G#________________D#m__________F#
там где смерть так холодна глаз её красота
_______A#m______G#____G#
но в душе пустота

Conclusion:
ритм: F Am G Dm - 8 раз (примерно, да и по желанию)
+ соло: будет чуть позже=)

спасибо Kamill'у (Антону К.)

@темы: ноты/табулатура

URL
Комментарии
2011-05-24 в 22:34 

Вечный Сентябрь
Чтобы играть, нужно знать правила. Чтобы выигрывать, нужно уметь эти правила обходить (с)
омномномномном

   

CrazY JulieT

главная